ISO-10303-21;
HEADER;
FILE_DESCRIPTION (( 'STEP AP203' ),
    '1' );
FILE_NAME ('BK7-RNDF-25.4-0.3.STEP',
    '2020-12-22T01:27:57',
    ( '' ),
    ( '' ),
    'SwSTEP 2.0',
    'SolidWorks 2020',
    '' );
FILE_SCHEMA (( 'CONFIG_CONTROL_DESIGN' ));
ENDSEC;

DATA;
#1 = CARTESIAN_POINT ( 'NONE',  ( 0.000000000000000000, 0.000000000000000000, 0.000000000000000000 ) ) ;
#2 = LOCAL_TIME ( 9, 27, 57.00000000000000000, #115 ) ;
#3 = DIRECTION ( 'NONE',  ( -1.000000000000000000, -0.000000000000000000, -0.000000000000000000 ) ) ;
#4 =( LENGTH_UNIT ( ) NAMED_UNIT ( * ) SI_UNIT ( .MILLI., .METRE. ) );
#5 = EDGE_CURVE ( 'NONE', #106, #59, #175, .T. ) ;
#6 = APPLICATION_PROTOCOL_DEFINITION ( 'international standard', 'config_control_design', 1994, #57 ) ;
#7 = CIRCLE ( 'NONE', #99, 12.69999999999999929 ) ;
#8 = AXIS2_PLACEMENT_3D ( 'NONE', #15, #71, #123 ) ;
#9 = CC_DESIGN_PERSON_AND_ORGANIZATION_ASSIGNMENT ( #117, #90, ( #112 ) ) ;
#10 = APPLICATION_PROTOCOL_DEFINITION ( 'international standard', 'config_control_design', 1994, #157 ) ;
#11 = ORIENTED_EDGE ( 'NONE', *, *, #174, .F. ) ;
#12 = EDGE_CURVE ( 'NONE', #13, #98, #108, .T. ) ;
#13 = VERTEX_POINT ( 'NONE', #97 ) ;
#14 = PRODUCT_RELATED_PRODUCT_CATEGORY ( 'detail', '', ( #142 ) ) ;
#15 = CARTESIAN_POINT ( 'NONE',  ( 1.999999999999998224, 0.000000000000000000, 0.000000000000000000 ) ) ;
#16 = ORIENTED_EDGE ( 'NONE', *, *, #5, .T. ) ;
#17 = CYLINDRICAL_SURFACE ( 'NONE', #19, 12.69999999999999929 ) ;
#18 = CC_DESIGN_PERSON_AND_ORGANIZATION_ASSIGNMENT ( #170, #155, ( #166 ) ) ;
#19 = AXIS2_PLACEMENT_3D ( 'NONE', #1, #44, #102 ) ;
#20 = SECURITY_CLASSIFICATION_LEVEL ( 'unclassified' ) ;
#21 = ADVANCED_BREP_SHAPE_REPRESENTATION ( 'BK7-RNDF-25.4-0.3', ( #52, #172 ), #140 ) ;
#22 = APPROVAL_STATUS ( 'not_yet_approved' ) ;
#23 = DATE_AND_TIME ( #33, #94 ) ;
#24 = CALENDAR_DATE ( 2020, 22, 12 ) ;
#25 = LOCAL_TIME ( 9, 27, 57.00000000000000000, #105 ) ;
#26 = CARTESIAN_POINT ( 'NONE',  ( 1.999999999999998224, 0.000000000000000000, 0.000000000000000000 ) ) ;
#27 = DIRECTION ( 'NONE',  ( -1.000000000000000000, -0.000000000000000000, -0.000000000000000000 ) ) ;
#28 = DIRECTION ( 'NONE',  ( 0.000000000000000000, 0.000000000000000000, 1.000000000000000000 ) ) ;
#29 = CARTESIAN_POINT ( 'NONE',  ( -1.187907395172932594E-15, 0.000000000000000000, 0.000000000000000000 ) ) ;
#30 = ADVANCED_FACE ( 'NONE', ( #38 ), #107, .F. ) ;
#31 =( NAMED_UNIT ( * ) SI_UNIT ( $, .STERADIAN. ) SOLID_ANGLE_UNIT ( ) );
#32 = APPROVAL ( #22, 'UNSPECIFIED' ) ;
#33 = CALENDAR_DATE ( 2020, 22, 12 ) ;
#34 = DIRECTION ( 'NONE',  ( 1.000000000000000000, 0.000000000000000000, 0.000000000000000000 ) ) ;
#35 = APPROVAL_PERSON_ORGANIZATION ( #69, #32, #80 ) ;
#36 = DATE_AND_TIME ( #24, #111 ) ;
#37 = APPROVAL_PERSON_ORGANIZATION ( #91, #153, #49 ) ;
#38 = FACE_OUTER_BOUND ( 'NONE', #40, .T. ) ;
#39 = DIRECTION ( 'NONE',  ( 0.000000000000000000, 0.000000000000000000, -1.000000000000000000 ) ) ;
#40 = EDGE_LOOP ( 'NONE', ( #41, #95 ) ) ;
#41 = ORIENTED_EDGE ( 'NONE', *, *, #174, .T. ) ;
#42 = CIRCLE ( 'NONE', #50, 12.69999999999999929 ) ;
#43 = LOCAL_TIME ( 9, 27, 57.00000000000000000, #54 ) ;
#44 = DIRECTION ( 'NONE',  ( -1.000000000000000000, -0.000000000000000000, -0.000000000000000000 ) ) ;
#45 = ADVANCED_FACE ( 'NONE', ( #133 ), #159, .F. ) ;
#46 =( NAMED_UNIT ( * ) PLANE_ANGLE_UNIT ( ) SI_UNIT ( $, .RADIAN. ) );
#47 = CC_DESIGN_PERSON_AND_ORGANIZATION_ASSIGNMENT ( #132, #51, ( #167 ) ) ;
#48 = ORGANIZATION ( 'UNSPECIFIED', 'UNSPECIFIED', '' ) ;
#49 = APPROVAL_ROLE ( '' ) ;
#50 = AXIS2_PLACEMENT_3D ( 'NONE', #29, #164, #87 ) ;
#51 = PERSON_AND_ORGANIZATION_ROLE ( 'classification_officer' ) ;
#52 = MANIFOLD_SOLID_BREP ( 'Ðý×', #89 ) ;
#53 = DESIGN_CONTEXT ( 'detailed design', #157, 'design' ) ;
#54 = COORDINATED_UNIVERSAL_TIME_OFFSET ( 8, 0, .AHEAD. ) ;
#55 = PERSON_AND_ORGANIZATION_ROLE ( 'design_supplier' ) ;
#56 = APPROVAL_ROLE ( '' ) ;
#57 = APPLICATION_CONTEXT ( 'configuration controlled 3d designs of mechanical parts and assemblies' ) ;
#58 = EDGE_LOOP ( 'NONE', ( #60, #160 ) ) ;
#59 = VERTEX_POINT ( 'NONE', #121 ) ;
#60 = ORIENTED_EDGE ( 'NONE', *, *, #101, .F. ) ;
#61 = CC_DESIGN_APPROVAL ( #32, ( #166 ) ) ;
#62 = CC_DESIGN_DATE_AND_TIME_ASSIGNMENT ( #168, #151, ( #112 ) ) ;
#63 = EDGE_CURVE ( 'NONE', #59, #98, #92, .T. ) ;
#64 = DATE_TIME_ROLE ( 'classification_date' ) ;
#65 = AXIS2_PLACEMENT_3D ( 'NONE', #134, #145, #85 ) ;
#66 = COORDINATED_UNIVERSAL_TIME_OFFSET ( 8, 0, .AHEAD. ) ;
#67 = PRODUCT_DEFINITION_SHAPE ( 'NONE', 'NONE',  #112 ) ;
#68 = PERSON_AND_ORGANIZATION ( #76, #48 ) ;
#69 = PERSON_AND_ORGANIZATION ( #76, #48 ) ;
#70 = CARTESIAN_POINT ( 'NONE',  ( 1.999999999999999112, 12.69999999999999929, 0.000000000000000000 ) ) ;
#71 = DIRECTION ( 'NONE',  ( -1.000000000000000000, -0.000000000000000000, -0.000000000000000000 ) ) ;
#72 = ORIENTED_EDGE ( 'NONE', *, *, #79, .T. ) ;
#73 = APPROVAL_PERSON_ORGANIZATION ( #68, #103, #56 ) ;
#74 = FACE_OUTER_BOUND ( 'NONE', #147, .T. ) ;
#75 = CC_DESIGN_SECURITY_CLASSIFICATION ( #167, ( #166 ) ) ;
#76 = PERSON ( 'UNSPECIFIED', 'UNSPECIFIED', 'UNSPECIFIED', ('UNSPECIFIED'), ('UNSPECIFIED'), ('UNSPECIFIED') ) ;
#77 = CC_DESIGN_APPROVAL ( #103, ( #112 ) ) ;
#78 = PERSON_AND_ORGANIZATION ( #76, #48 ) ;
#79 = EDGE_CURVE ( 'NONE', #106, #13, #171, .T. ) ;
#80 = APPROVAL_ROLE ( '' ) ;
#81 = DATE_AND_TIME ( #104, #25 ) ;
#82 = COORDINATED_UNIVERSAL_TIME_OFFSET ( 8, 0, .AHEAD. ) ;
#83 = CARTESIAN_POINT ( 'NONE',  ( -5.939536975864662969E-16, 12.69999999999999929, 0.000000000000000000 ) ) ;
#84 = EDGE_LOOP ( 'NONE', ( #126, #72, #143, #162 ) ) ;
#85 = DIRECTION ( 'NONE',  ( 0.000000000000000000, 0.000000000000000000, 1.000000000000000000 ) ) ;
#86 = DIRECTION ( 'NONE',  ( -1.000000000000000000, -0.000000000000000000, -0.000000000000000000 ) ) ;
#87 = DIRECTION ( 'NONE',  ( 0.000000000000000000, 0.000000000000000000, 1.000000000000000000 ) ) ;
#88 = PERSON_AND_ORGANIZATION ( #76, #48 ) ;
#89 = CLOSED_SHELL ( 'NONE', ( #125, #152, #45, #30 ) ) ;
#90 = PERSON_AND_ORGANIZATION_ROLE ( 'creator' ) ;
#91 = PERSON_AND_ORGANIZATION ( #76, #48 ) ;
#92 = CIRCLE ( 'NONE', #65, 12.69999999999999929 ) ;
#93 = DIRECTION ( 'NONE',  ( 0.000000000000000000, 0.000000000000000000, 1.000000000000000000 ) ) ;
#94 = LOCAL_TIME ( 9, 27, 57.00000000000000000, #82 ) ;
#95 = ORIENTED_EDGE ( 'NONE', *, *, #63, .T. ) ;
#96 = DIRECTION ( 'NONE',  ( -0.000000000000000000, 0.000000000000000000, 1.000000000000000000 ) ) ;
#97 = CARTESIAN_POINT ( 'NONE',  ( 1.999999999999998224, 0.000000000000000000, 12.69999999999999929 ) ) ;
#98 = VERTEX_POINT ( 'NONE', #146 ) ;
#99 = AXIS2_PLACEMENT_3D ( 'NONE', #26, #27, #28 ) ;
#100 = ORIENTED_EDGE ( 'NONE', *, *, #101, .T. ) ;
#101 = EDGE_CURVE ( 'NONE', #13, #106, #7, .T. ) ;
#102 = DIRECTION ( 'NONE',  ( 0.000000000000000000, 0.000000000000000000, 1.000000000000000000 ) ) ;
#103 = APPROVAL ( #118, 'UNSPECIFIED' ) ;
#104 = CALENDAR_DATE ( 2020, 22, 12 ) ;
#105 = COORDINATED_UNIVERSAL_TIME_OFFSET ( 8, 0, .AHEAD. ) ;
#106 = VERTEX_POINT ( 'NONE', #149 ) ;
#107 = PLANE ( 'NONE',  #165 ) ;
#108 = LINE ( 'NONE', #148, #156 ) ;
#109 = DIRECTION ( 'NONE',  ( 1.000000000000000000, 0.000000000000000000, 0.000000000000000000 ) ) ;
#110 = AXIS2_PLACEMENT_3D ( 'NONE', #113, #3, #135 ) ;
#111 = LOCAL_TIME ( 9, 27, 57.00000000000000000, #66 ) ;
#112 = PRODUCT_DEFINITION ( 'UNKNOWN', '', #166, #53 ) ;
#113 = CARTESIAN_POINT ( 'NONE',  ( 0.000000000000000000, 0.000000000000000000, 0.000000000000000000 ) ) ;
#114 = APPROVAL_STATUS ( 'not_yet_approved' ) ;
#115 = COORDINATED_UNIVERSAL_TIME_OFFSET ( 8, 0, .AHEAD. ) ;
#116 = UNCERTAINTY_MEASURE_WITH_UNIT (LENGTH_MEASURE( 1.000000000000000082E-05 ), #4, 'distance_accuracy_value', 'NONE');
#117 = PERSON_AND_ORGANIZATION ( #76, #48 ) ;
#118 = APPROVAL_STATUS ( 'not_yet_approved' ) ;
#119 = APPROVAL_DATE_TIME ( #36, #103 ) ;
#120 = AXIS2_PLACEMENT_3D ( 'NONE', #70, #161, #96 ) ;
#121 = CARTESIAN_POINT ( 'NONE',  ( -1.187907395172932594E-15, 1.555301434917138433E-15, -12.69999999999999929 ) ) ;
#122 = CC_DESIGN_DATE_AND_TIME_ASSIGNMENT ( #154, #64, ( #167 ) ) ;
#123 = DIRECTION ( 'NONE',  ( 0.000000000000000000, 0.000000000000000000, 1.000000000000000000 ) ) ;
#124 = CARTESIAN_POINT ( 'NONE',  ( 0.000000000000000000, 1.555301434917138433E-15, -12.69999999999999929 ) ) ;
#125 = ADVANCED_FACE ( 'NONE', ( #74 ), #163, .T. ) ;
#126 = ORIENTED_EDGE ( 'NONE', *, *, #5, .F. ) ;
#127 = FACE_OUTER_BOUND ( 'NONE', #84, .T. ) ;
#128 = VECTOR ( 'NONE', #173, 1000.000000000000000 ) ;
#129 = CALENDAR_DATE ( 2020, 22, 12 ) ;
#130 = APPROVAL_DATE_TIME ( #23, #32 ) ;
#131 = SHAPE_DEFINITION_REPRESENTATION ( #67, #21 ) ;
#132 = PERSON_AND_ORGANIZATION ( #76, #48 ) ;
#133 = FACE_OUTER_BOUND ( 'NONE', #58, .T. ) ;
#134 = CARTESIAN_POINT ( 'NONE',  ( -1.187907395172932594E-15, 0.000000000000000000, 0.000000000000000000 ) ) ;
#135 = DIRECTION ( 'NONE',  ( 0.000000000000000000, 0.000000000000000000, 1.000000000000000000 ) ) ;
#136 = CARTESIAN_POINT ( 'NONE',  ( 0.000000000000000000, 0.000000000000000000, 0.000000000000000000 ) ) ;
#137 = PERSON_AND_ORGANIZATION_ROLE ( 'design_owner' ) ;
#138 = CC_DESIGN_PERSON_AND_ORGANIZATION_ASSIGNMENT ( #78, #137, ( #142 ) ) ;
#139 = APPROVAL_DATE_TIME ( #81, #153 ) ;
#140 =( GEOMETRIC_REPRESENTATION_CONTEXT ( 3 ) GLOBAL_UNCERTAINTY_ASSIGNED_CONTEXT ( ( #116 ) ) GLOBAL_UNIT_ASSIGNED_CONTEXT ( ( #4, #46, #31 ) ) REPRESENTATION_CONTEXT ( 'NONE', 'WORKASPACE' ) );
#141 = MECHANICAL_CONTEXT ( 'NONE', #57, 'mechanical' ) ;
#142 = PRODUCT ( 'BK7-RNDF-25.4-0.3', 'BK7-RNDF-25.4-0.3', '', ( #141 ) ) ;
#143 = ORIENTED_EDGE ( 'NONE', *, *, #12, .T. ) ;
#144 = CC_DESIGN_APPROVAL ( #153, ( #167 ) ) ;
#145 = DIRECTION ( 'NONE',  ( -1.000000000000000000, -0.000000000000000000, -0.000000000000000000 ) ) ;
#146 = CARTESIAN_POINT ( 'NONE',  ( -1.187907395172932594E-15, 0.000000000000000000, 12.69999999999999929 ) ) ;
#147 = EDGE_LOOP ( 'NONE', ( #100, #16, #11, #158 ) ) ;
#148 = CARTESIAN_POINT ( 'NONE',  ( 0.000000000000000000, 0.000000000000000000, 12.69999999999999929 ) ) ;
#149 = CARTESIAN_POINT ( 'NONE',  ( 1.999999999999998224, 1.555301434917138433E-15, -12.69999999999999929 ) ) ;
#150 = CC_DESIGN_PERSON_AND_ORGANIZATION_ASSIGNMENT ( #88, #55, ( #166 ) ) ;
#151 = DATE_TIME_ROLE ( 'creation_date' ) ;
#152 = ADVANCED_FACE ( 'NONE', ( #127 ), #17, .T. ) ;
#153 = APPROVAL ( #114, 'UNSPECIFIED' ) ;
#154 = DATE_AND_TIME ( #129, #43 ) ;
#155 = PERSON_AND_ORGANIZATION_ROLE ( 'creator' ) ;
#156 = VECTOR ( 'NONE', #86, 1000.000000000000000 ) ;
#157 = APPLICATION_CONTEXT ( 'configuration controlled 3d designs of mechanical parts and assemblies' ) ;
#158 = ORIENTED_EDGE ( 'NONE', *, *, #12, .F. ) ;
#159 = PLANE ( 'NONE',  #120 ) ;
#160 = ORIENTED_EDGE ( 'NONE', *, *, #79, .F. ) ;
#161 = DIRECTION ( 'NONE',  ( -1.000000000000000000, 0.000000000000000000, -0.000000000000000000 ) ) ;
#162 = ORIENTED_EDGE ( 'NONE', *, *, #63, .F. ) ;
#163 = CYLINDRICAL_SURFACE ( 'NONE', #110, 12.69999999999999929 ) ;
#164 = DIRECTION ( 'NONE',  ( -1.000000000000000000, -0.000000000000000000, -0.000000000000000000 ) ) ;
#165 = AXIS2_PLACEMENT_3D ( 'NONE', #83, #109, #39 ) ;
#166 = PRODUCT_DEFINITION_FORMATION_WITH_SPECIFIED_SOURCE ( 'ANY', '', #142, .NOT_KNOWN. ) ;
#167 = SECURITY_CLASSIFICATION ( '', '', #20 ) ;
#168 = DATE_AND_TIME ( #169, #2 ) ;
#169 = CALENDAR_DATE ( 2020, 22, 12 ) ;
#170 = PERSON_AND_ORGANIZATION ( #76, #48 ) ;
#171 = CIRCLE ( 'NONE', #8, 12.69999999999999929 ) ;
#172 = AXIS2_PLACEMENT_3D ( 'NONE', #136, #93, #34 ) ;
#173 = DIRECTION ( 'NONE',  ( -1.000000000000000000, -0.000000000000000000, -0.000000000000000000 ) ) ;
#174 = EDGE_CURVE ( 'NONE', #98, #59, #42, .T. ) ;
#175 = LINE ( 'NONE', #124, #128 ) ;
ENDSEC;
END-ISO-10303-21;
